Songs by Guitar Tab, Firefox-Friendly

Random Music or song Quiz

Can you name the popular songs from their tabs?

Quiz not verified by Sporcle

embed
 plays        
How to Play
Score 0/16 Timer 07:00
TabSongArtist
------------------------------------9-7-6-7- ------9-7-6-----7-6--------9-7-6-0-0-0-0- -5h7--------7p5-----5-9p7----------------- ----------------------------------------------Green Day
-0--3--5--0-|-3--6-5--|-0--3--5---3-|-0--- -0--3--5--0-|-3--6-5--|-0--3--5---3-|-0--- -------------|-----------|--------------|----- -------------|-----------|--------------|-----Deep Purple
-11----13----11---15p11--- ---11----11----11-------11- ------------------------------ ------------------------------ ------------------------------ ------------------------------Smashing Pumpkins
---------------------------------------------- ----7--7/9-9--12/11-12/11-12/11--7-7/9-9- -9--5--5/7-7--10/9--10/9---10/9---5-5/7-7- -7----------------------------------------------Black Sabbath
-------0-------0-------0-------0- -----3-------3-------5-------3--- ---2-------2-------4-------2----- ---------3-------5-------3------- -3--------------------------------Weezer
------------------------------------------ --------5-------------------5------------ -----7------------7------7-----------7-- -0--------6--5-----0---------6--5------Metallica
---------------------------------------------- ---------------------------------------------- -------4----5-----4-----2----------2-------- -2-2----2-----2-----2-----5-4-5----5-4-0-Ozzy Osbourne
---------------15----14----- -----15---------------------- --------14-12-----14----14- -12-------------------------- ------------------------------ ------------------------------Guns 'n' Roses
TabSongArtist
-----2-0-------0-------0------0-- ---2---------0-------0------0---- -0---------2-------3------2------ ---------3-------1------3--------Blue Öyster Cult
---------------------10---------- --------------------------12/5-- -----------10h12--------------- -10-10--------------------------The Beatles
-------------------|------------------------- ---------0--1-2---|---------------0--1-2--- -0--3~------------|---0-0-0-0-3~---------- -----------------3-|-----------------------3-Led Zeppelin
--------8b-----|------------------- -----7----------|------------------- -/9--------7---|--5--------------- ----------------|-----5-----5/7--- ----------------|--------0---------Jimi Hendrix
-----------------3-3--|------------------6-6- -3--3-3--xxxx-3-3--|-6--6-6--xxxx--6-6- -3--3-3--xxxx-1-1--|-6--6-6--xxxx--4-4- -1--1-1--xxxx-------|-4--4-4--xxxx-------Nirvana
G------------------------------------------- D-------------------3h4-------------------- A--------3h5-x-x---------5--0--3--2------ D---0-------------------------0--3--2------Rage Against The Machine
------------------------------- ------------------------------- ------7------5-------------5-- ---0-----7------0--0--7------Bon Jovi
--------------------------------------- -----------/5------------------------- --7---7--------7---5---3~----2~---- --------------------------------------The White Stripes

Friend Scores


  Player Best Score Plays Last Played
You You haven't played this game yet.

You Might Also Like...

Extras